  0
SECTION
  2
HEADER
  9
$ACADVER
  1
AC1015
  9
$ACADMAINTVER
 70
     6
  9
$DWGCODEPAGE
  3
ANSI_1254
  9
$INSBASE
 10
0.0
 20
0.0
 30
0.0
  9
$EXTMIN
 10
0.0
 20
0.0
 30
0.0
  9
$EXTMAX
 10
279.4
 20
215.9
 30
0.0
  9
$LIMMIN
 10
0.0
 20
0.0
  9
$LIMMAX
 10
279.4
 20
215.9
  9
$ORTHOMODE
 70
     0
  9
$REGENMODE
 70
     1
  9
$FILLMODE
 70
     1
  9
$QTEXTMODE
 70
     0
  9
$MIRRTEXT
 70
     1
  9
$LTSCALE
 40
1.0
  9
$ATTMODE
 70
     1
  9
$TEXTSIZE
 40
3.5
  9
$TRACEWID
 40
1.0
  9
$TEXTSTYLE
  7
Standard
  9
$CLAYER
  8
0
  9
$CELTYPE
  6
ByLayer
  9
$CECOLOR
 62
   256
  9
$CELTSCALE
 40
1.0
  9
$DISPSILH
 70
     0
  9
$DIMSCALE
 40
1.0
  9
$DIMASZ
 40
3.5
  9
$DIMEXO
 40
1.0
  9
$DIMDLI
 40
3.75
  9
$DIMRND
 40
0.0
  9
$DIMDLE
 40
0.0
  9
$DIMEXE
 40
1.0
  9
$DIMTP
 40
0.0
  9
$DIMTM
 40
0.0
  9
$DIMTXT
 40
3.5
  9
$DIMCEN
 40
2.5
  9
$DIMTSZ
 40
0.0
  9
$DIMTOL
 70
     0
  9
$DIMLIM
 70
     0
  9
$DIMTIH
 70
     1
  9
$DIMTOH
 70
     1
  9
$DIMSE1
 70
     0
  9
$DIMSE2
 70
     0
  9
$DIMTAD
 70
     1
  9
$DIMZIN
 70
     0
  9
$DIMBLK
  1

  9
$DIMASO
 70
     1
  9
$DIMSHO
 70
     1
  9
$DIMPOST
  1

  9
$DIMAPOST
  1

  9
$DIMALT
 70
     0
  9
$DIMALTD
 70
     3
  9
$DIMALTF
 40
0.0393700787
  9
$DIMLFAC
 40
1.0
  9
$DIMTOFL
 70
     1
  9
$DIMTVP
 40
0.0
  9
$DIMTIX
 70
     0
  9
$DIMSOXD
 70
     0
  9
$DIMSAH
 70
     0
  9
$DIMBLK1
  1

  9
$DIMBLK2
  1

  9
$DIMSTYLE
  2
ISO-25
  9
$DIMCLRD
 70
     0
  9
$DIMCLRE
 70
     0
  9
$DIMCLRT
 70
     0
  9
$DIMTFAC
 40
1.0
  9
$DIMGAP
 40
1.524
  9
$DIMJUST
 70
     0
  9
$DIMSD1
 70
     0
  9
$DIMSD2
 70
     0
  9
$DIMTOLJ
 70
     0
  9
$DIMTZIN
 70
     0
  9
$DIMALTZ
 70
     0
  9
$DIMALTTZ
 70
     0
  9
$DIMUPT
 70
     0
  9
$DIMDEC
 70
     2
  9
$DIMTDEC
 70
     2
  9
$DIMALTU
 70
     2
  9
$DIMALTTD
 70
     3
  9
$DIMTXSTY
  7
Standard
  9
$DIMAUNIT
 70
     0
  9
$DIMADEC
 70
     2
  9
$DIMALTRND
 40
0.0
  9
$DIMAZIN
 70
     0
  9
$DIMDSEP
 70
    44
  9
$DIMATFIT
 70
     3
  9
$DIMFRAC
 70
     0
  9
$DIMLDRBLK
  1

  9
$DIMLUNIT
 70
     2
  9
$DIMLWD
 70
    -2
  9
$DIMLWE
 70
    -2
  9
$DIMTMOVE
 70
     0
  9
$LUNITS
 70
     2
  9
$LUPREC
 70
     2
  9
$SKETCHINC
 40
1.0
  9
$FILLETRAD
 40
10.0
  9
$AUNITS
 70
     0
  9
$AUPREC
 70
     2
  9
$MENU
  1
.
  9
$ELEVATION
 40
0.0
  9
$PELEVATION
 40
0.0
  9
$THICKNESS
 40
0.0
  9
$LIMCHECK
 70
     0
  9
$CHAMFERA
 40
0.0
  9
$CHAMFERB
 40
0.0
  9
$CHAMFERC
 40
0.0
  9
$CHAMFERD
 40
0.0
  9
$SKPOLY
 70
     0
  9
$TDCREATE
 40
2458985.699385532
  9
$TDUCREATE
 40
2458985.574385532
  9
$TDUPDATE
 40
2458985.699385891
  9
$TDUUPDATE
 40
2458985.574385891
  9
$TDINDWG
 40
0.0000000116
  9
$TDUSRTIMER
 40
0.0000000116
  9
$USRTIMER
 70
     1
  9
$ANGBASE
 50
0.0
  9
$ANGDIR
 70
     0
  9
$PDMODE
 70
     0
  9
$PDSIZE
 40
-1.0
  9
$PLINEWID
 40
0.0
  9
$SPLFRAME
 70
     0
  9
$SPLINETYPE
 70
     6
  9
$SPLINESEGS
 70
     8
  9
$HANDSEED
  5
F0
  9
$SURFTAB1
 70
     6
  9
$SURFTAB2
 70
     6
  9
$SURFTYPE
 70
     6
  9
$SURFU
 70
     6
  9
$SURFV
 70
     6
  9
$UCSBASE
  2

  9
$UCSNAME
  2

  9
$UCSORG
 10
0.0
 20
0.0
 30
0.0
  9
$UCSXDIR
 10
1.0
 20
0.0
 30
0.0
  9
$UCSYDIR
 10
0.0
 20
1.0
 30
0.0
  9
$UCSORTHOREF
  2

  9
$UCSORTHOVIEW
 70
     0
  9
$UCSORGTOP
 10
0.0
 20
0.0
 30
0.0
  9
$UCSORGBOTTOM
 10
0.0
 20
0.0
 30
0.0
  9
$UCSORGLEFT
 10
0.0
 20
0.0
 30
0.0
  9
$UCSORGRIGHT
 10
0.0
 20
0.0
 30
0.0
  9
$UCSORGFRONT
 10
0.0
 20
0.0
 30
0.0
  9
$UCSORGBACK
 10
0.0
 20
0.0
 30
0.0
  9
$PUCSBASE
  2

  9
$PUCSNAME
  2

  9
$PUCSORG
 10
0.0
 20
0.0
 30
0.0
  9
$PUCSXDIR
 10
1.0
 20
0.0
 30
0.0
  9
$PUCSYDIR
 10
0.0
 20
1.0
 30
0.0
  9
$PUCSORTHOREF
  2

  9
$PUCSORTHOVIEW
 70
     0
  9
$PUCSORGTOP
 10
0.0
 20
0.0
 30
0.0
  9
$PUCSORGBOTTOM
 10
0.0
 20
0.0
 30
0.0
  9
$PUCSORGLEFT
 10
0.0
 20
0.0
 30
0.0
  9
$PUCSORGRIGHT
 10
0.0
 20
0.0
 30
0.0
  9
$PUCSORGFRONT
 10
0.0
 20
0.0
 30
0.0
  9
$PUCSORGBACK
 10
0.0
 20
0.0
 30
0.0
  9
$USERI1
 70
     0
  9
$USERI2
 70
     0
  9
$USERI3
 70
     0
  9
$USERI4
 70
     0
  9
$USERI5
 70
     0
  9
$USERR1
 40
0.0
  9
$USERR2
 40
0.0
  9
$USERR3
 40
0.0
  9
$USERR4
 40
0.0
  9
$USERR5
 40
0.0
  9
$WORLDVIEW
 70
     1
  9
$SHADEDGE
 70
     3
  9
$SHADEDIF
 70
    70
  9
$TILEMODE
 70
     1
  9
$MAXACTVP
 70
    64
  9
$PINSBASE
 10
0.0
 20
0.0
 30
0.0
  9
$PLIMCHECK
 70
     0
  9
$PEXTMIN
 10
1.0000000000E+20
 20
1.0000000000E+20
 30
1.0000000000E+20
  9
$PEXTMAX
 10
-1.0000000000E+20
 20
-1.0000000000E+20
 30
-1.0000000000E+20
  9
$PLIMMIN
 10
0.0
 20
0.0
  9
$PLIMMAX
 10
420.0
 20
297.0
  9
$UNITMODE
 70
     0
  9
$VISRETAIN
 70
     1
  9
$PLINEGEN
 70
     0
  9
$PSLTSCALE
 70
     1
  9
$TREEDEPTH
 70
  3020
  9
$CMLSTYLE
  2
Standard
  9
$CMLJUST
 70
     0
  9
$CMLSCALE
 40
20.0
  9
$PROXYGRAPHICS
 70
     1
  9
$MEASUREMENT
 70
     1
  9
$CELWEIGHT
370
    -1
  9
$ENDCAPS
280
     0
  9
$JOINSTYLE
280
     0
  9
$LWDISPLAY
290
     1
  9
$INSUNITS
 70
     4
  9
$HYPERLINKBASE
  1

  9
$STYLESHEET
  1

  9
$XEDIT
290
     1
  9
$CEPSNTYPE
380
     0
  9
$PSTYLEMODE
290
     1
  9
$FINGERPRINTGUID
  2
{3ad13038-a111-49a8-9e1b-4507315edc8a}
  9
$VERSIONGUID
  2
{FAEB1C32-E019-11D5-929B-00C0DF256EC4}
  9
$EXTNAMES
290
     1
  9
$PSVPSCALE
 40
0.0
  9
$OLESTARTUP
290
     0
  0
ENDSEC
  0
SECTION
  2
CLASSES
  0
CLASS
  1
ACDBDICTIONARYWDFLT
  2
AcDbDictionaryWithDefault
  3
ObjectDBX Classes
 90
        0
280
     0
281
     0
  0
CLASS
  1
VISUALSTYLE
  2
AcDbVisualStyle
  3
ObjectDBX Classes
 90
     4095
280
     0
281
     0
  0
CLASS
  1
MATERIAL
  2
AcDbMaterial
  3
ObjectDBX Classes
 90
     1153
280
     0
281
     0
  0
CLASS
  1
SCALE
  2
AcDbScale
  3
ObjectDBX Classes
 90
     1153
280
     0
281
     0
  0
CLASS
  1
TABLESTYLE
  2
AcDbTableStyle
  3
ObjectDBX Classes
 90
     4095
280
     0
281
     0
  0
CLASS
  1
MLEADERSTYLE
  2
AcDbMLeaderStyle
  3
ACDB_MLEADERSTYLE_CLASS
 90
     4095
280
     0
281
     0
  0
CLASS
  1
SUN
  2
AcDbSun
  3
SCENEOE
 90
     1153
280
     0
281
     0
  0
CLASS
  1
ACDBPLACEHOLDER
  2
AcDbPlaceHolder
  3
ObjectDBX Classes
 90
        0
280
     0
281
     0
  0
CLASS
  1
LAYOUT
  2
AcDbLayout
  3
ObjectDBX Classes
 90
        0
280
     0
281
     0
  0
ENDSEC
  0
SECTION
  2
TABLES
  0
TABLE
  2
VPORT
  5
8
330
0
100
AcDbSymbolTable
 70
     1
  0
VPORT
  5
29
330
8
100
AcDbSymbolTableRecord
100
AcDbViewportTableRecord
  2
*Active
 70
     0
 10
0.0
 20
0.0
 11
1.0
 21
1.0
 12
139.7
 22
107.95
 13
0.0
 23
0.0
 14
10.0
 24
10.0
 15
10.0
 25
10.0
 16
0.0
 26
0.0
 36
1.0
 17
0.0
 27
0.0
 37
0.0
 40
215.9
 41
1.2941176471
 42
50.0
 43
0.0
 44
0.0
 50
0.0
 51
0.0
 71
     0
 72
  2000
 73
     1
 74
     3
 75
     0
 76
     0
 77
     0
 78
     0
281
     0
 65
     1
110
0.0
120
0.0
130
0.0
111
1.0
121
0.0
131
0.0
112
0.0
122
1.0
132
0.0
 79
     0
146
0.0
  0
ENDTAB
  0
TABLE
  2
LTYPE
  5
5
330
0
100
AcDbSymbolTable
 70
     6
  0
LTYPE
  5
14
330
5
100
AcDbSymbolTableRecord
100
AcDbLinetypeTableRecord
  2
ByBlock
 70
     0
  3

 72
    65
 73
     0
 40
0.0
  0
LTYPE
  5
15
330
5
100
AcDbSymbolTableRecord
100
AcDbLinetypeTableRecord
  2
ByLayer
 70
     0
  3

 72
    65
 73
     0
 40
0.0
  0
LTYPE
  5
16
330
5
100
AcDbSymbolTableRecord
100
AcDbLinetypeTableRecord
  2
Continuous
 70
     0
  3
Solid line
 72
    65
 73
     0
 40
0.0
  0
LTYPE
  5
6E
330
5
100
AcDbSymbolTableRecord
100
AcDbLinetypeTableRecord
  2
HIDDEN
 70
     0
  3
Hidden __ __ __ __ __ __ __ __ __ __ __ __ __ __
 72
    65
 73
     2
 40
1.905
 49
1.27
 74
     0
 49
-0.635
 74
     0
  0
LTYPE
  5
6F
330
5
100
AcDbSymbolTableRecord
100
AcDbLinetypeTableRecord
  2
PHANTOM
 70
     0
  3
Phantom ______  __  __  ______  __  __  ______
 72
    65
 73
     6
 40
12.7
 49
6.35
 74
     0
 49
-1.27
 74
     0
 49
1.27
 74
     0
 49
-1.27
 74
     0
 49
1.27
 74
     0
 49
-1.27
 74
     0
  0
LTYPE
  5
70
330
5
100
AcDbSymbolTableRecord
100
AcDbLinetypeTableRecord
  2
CENTER
 70
     0
  3
Center ____ _ ____ _ ____ _ ____ _ ____ _ ____
 72
    65
 73
     4
 40
10.16
 49
6.35
 74
     0
 49
-1.27
 74
     0
 49
1.27
 74
     0
 49
-1.27
 74
     0
  0
LTYPE
  5
71
330
5
100
AcDbSymbolTableRecord
100
AcDbLinetypeTableRecord
  2
CENTERX2
 70
     0
  3
Center (2x) ________  __  ________  __  _____
 72
    65
 73
     4
 40
20.32
 49
12.7
 74
     0
 49
-2.54
 74
     0
 49
2.54
 74
     0
 49
-2.54
 74
     0
  0
LTYPE
  5
72
330
5
100
AcDbSymbolTableRecord
100
AcDbLinetypeTableRecord
  2
DOT2
 70
     0
  3
Dot (.5x) ........................................
 72
    65
 73
     2
 40
0.635
 49
0.0
 74
     0
 49
-0.635
 74
     0
  0
ENDTAB
  0
TABLE
  2
LAYER
  5
2
330
0
100
AcDbSymbolTable
 70
    17
  0
LAYER
  5
10
330
2
100
AcDbSymbolTableRecord
100
AcDbLayerTableRecord
  2
0
 70
     0
 62
     7
  6
Continuous
370
    -3
390
F
  0
LAYER
  5
73
330
2
100
AcDbSymbolTableRecord
100
AcDbLayerTableRecord
  2
FORMAT
 70
     0
 62
     7
  6
Continuous
370
    -3
390
F
  0
LAYER
  5
74
330
2
100
AcDbSymbolTableRecord
100
AcDbLayerTableRecord
  2
YARDIMCI_GEOMETRI
 70
     0
 62
    -6
  6
Continuous
290
     0
370
    -3
390
F
  0
LAYER
  5
75
330
2
100
AcDbSymbolTableRecord
100
AcDbLayerTableRecord
  2
SAYFA_CERCEVESI
 70
     0
 62
     7
  6
Continuous
370
    25
390
F
  0
LAYER
  5
76
330
2
100
AcDbSymbolTableRecord
100
AcDbLayerTableRecord
  2
ANTET
 70
     0
 62
     7
  6
Continuous
370
    -3
390
F
  0
LAYER
  5
77
330
2
100
AcDbSymbolTableRecord
100
AcDbLayerTableRecord
  2
OLCU
 70
     0
 62
   150
  6
Continuous
370
    -3
390
F
  0
LAYER
  5
78
330
2
100
AcDbSymbolTableRecord
100
AcDbLayerTableRecord
  2
METIN
 70
     0
 62
    96
  6
Continuous
370
    -3
390
F
  0
LAYER
  5
79
330
2
100
AcDbSymbolTableRecord
100
AcDbLayerTableRecord
  2
BALON
 70
     0
 62
     5
  6
Continuous
370
    -3
390
F
  0
LAYER
  5
7A
330
2
100
AcDbSymbolTableRecord
100
AcDbLayerTableRecord
  2
VURGU
 70
     0
 62
     7
  6
Continuous
370
    -3
390
F
  0
LAYER
  5
7B
330
2
100
AcDbSymbolTableRecord
100
AcDbLayerTableRecord
  2
SILIK
 70
     0
 62
     7
  6
Continuous
370
    -3
390
F
  0
LAYER
  5
7C
330
2
100
AcDbSymbolTableRecord
100
AcDbLayerTableRecord
  2
MODEL
 70
     0
 62
     7
  6
Continuous
370
    -3
390
F
  0
LAYER
  5
7D
330
2
100
AcDbSymbolTableRecord
100
AcDbLayerTableRecord
  2
DETAYLANDıRMA
 70
     0
 62
   190
  6
Continuous
370
    -3
390
F
  0
LAYER
  5
7E
330
2
100
AcDbSymbolTableRecord
100
AcDbLayerTableRecord
  2
TOLERANS
 70
     0
 62
   230
  6
Continuous
370
    -3
390
F
  0
LAYER
  5
7F
330
2
100
AcDbSymbolTableRecord
100
AcDbLayerTableRecord
  2
MERKEZ_CIZGILERI
 70
     0
 62
    30
  6
Continuous
370
    -3
390
F
  0
LAYER
  5
80
330
2
100
AcDbSymbolTableRecord
100
AcDbLayerTableRecord
  2
KESIT-DETAY_CIZGILERI
 70
     0
 62
     7
  6
Continuous
370
    -3
390
F
  0
LAYER
  5
81
330
2
100
AcDbSymbolTableRecord
100
AcDbLayerTableRecord
  2
\U+041E\U+0421\U+0415\U+0412\U+042B\U+0415
 70
     0
 62
     7
  6
Continuous
370
    -3
390
F
  0
LAYER
  5
82
330
2
100
AcDbSymbolTableRecord
100
AcDbLayerTableRecord
  2
\U+0412\U+041E\U+0414\U+042F\U+041D\U+042B\U+0415_\U+0417\U+041D\U+0410\U+041A\U+0418
 70
     0
 62
    11
  6
Continuous
370
    -3
390
F
  0
ENDTAB
  0
TABLE
  2
STYLE
  5
3
330
0
100
AcDbSymbolTable
 70
     1
  0
STYLE
  5
11
330
3
100
AcDbSymbolTableRecord
100
AcDbTextStyleTableRecord
  2
Standard
 70
     0
 40
0.0
 41
1.0
 50
0.0
 71
     0
 42
3.5
  3
txt
  4

  0
ENDTAB
  0
TABLE
  2
VIEW
  5
6
330
0
100
AcDbSymbolTable
 70
     0
  0
ENDTAB
  0
TABLE
  2
UCS
  5
7
330
0
100
AcDbSymbolTable
 70
     0
  0
ENDTAB
  0
TABLE
  2
APPID
  5
9
330
0
100
AcDbSymbolTable
 70
     1
  0
APPID
  5
12
330
9
100
AcDbSymbolTableRecord
100
AcDbRegAppTableRecord
  2
ACAD
 70
     0
  0
ENDTAB
  0
TABLE
  2
DIMSTYLE
  5
A
330
0
100
AcDbSymbolTable
 70
     1
100
AcDbDimStyleTable
  0
DIMSTYLE
105
27
330
A
100
AcDbSymbolTableRecord
100
AcDbDimStyleTableRecord
  2
ISO-25
 70
     0
 41
2.5
 42
0.625
 43
3.75
 44
1.25
 73
     0
 74
     0
 77
     1
 78
     8
140
2.5
141
2.5
143
0.0393700787
147
0.625
171
     3
172
     1
178
     0
271
     2
272
     2
274
     3
278
    44
283
     0
284
     8
340
11
  0
ENDTAB
  0
TABLE
  2
BLOCK_RECORD
  5
1
330
0
100
AcDbSymbolTable
 70
     2
  0
BLOCK_RECORD
  5
1F
330
1
100
AcDbSymbolTableRecord
100
AcDbBlockTableRecord
  2
*Model_Space
340
22
  0
BLOCK_RECORD
  5
1B
330
1
100
AcDbSymbolTableRecord
100
AcDbBlockTableRecord
  2
*Paper_Space
340
1E
  0
BLOCK_RECORD
  5
23
330
1
100
AcDbSymbolTableRecord
100
AcDbBlockTableRecord
  2
*Paper_Space0
340
26
  0
BLOCK_RECORD
  5
88
330
1
100
AcDbSymbolTableRecord
100
AcDbBlockTableRecord
  2
SW_CENTERMARKSYMBOL_0
340
0
102
{BLKREFS
331
93
102
}
  0
ENDTAB
  0
ENDSEC
  0
SECTION
  2
BLOCKS
  0
BLOCK
  5
20
330
1F
100
AcDbEntity
  8
0
100
AcDbBlockBegin
  2
*Model_Space
 70
     0
 10
0.0
 20
0.0
 30
0.0
  3
*Model_Space
  1

  0
ENDBLK
  5
21
330
1F
100
AcDbEntity
  8
0
100
AcDbBlockEnd
  0
BLOCK
  5
1C
330
1B
100
AcDbEntity
 67
     1
  8
0
100
AcDbBlockBegin
  2
*Paper_Space
 70
     0
 10
0.0
 20
0.0
 30
0.0
  3
*Paper_Space
  1

  0
ENDBLK
  5
1D
330
1B
100
AcDbEntity
 67
     1
  8
0
100
AcDbBlockEnd
  0
BLOCK
  5
24
330
23
100
AcDbEntity
  8
0
100
AcDbBlockBegin
  2
*Paper_Space0
 70
     0
 10
0.0
 20
0.0
 30
0.0
  3
*Paper_Space0
  1

  0
ENDBLK
  5
25
330
23
100
AcDbEntity
  8
0
100
AcDbBlockEnd
  0
BLOCK
  5
89
330
88
100
AcDbEntity
  8
0
100
AcDbBlockBegin
  2
SW_CENTERMARKSYMBOL_0
 70
     0
 10
0.0
 20
0.0
 30
0.0
  3
SW_CENTERMARKSYMBOL_0
  1

  0
LINE
  5
8B
330
88
100
AcDbEntity
  8
FORMAT
 62
     0
100
AcDbLine
 10
0.0
 20
0.0
 30
0.0
 11
0.0
 21
2.5
 31
0.0
  0
LINE
  5
8C
330
88
100
AcDbEntity
  8
FORMAT
 62
     0
100
AcDbLine
 10
0.0
 20
0.0
 30
0.0
 11
-2.5
 21
0.0
 31
0.0
  0
LINE
  5
8D
330
88
100
AcDbEntity
  8
FORMAT
 62
     0
100
AcDbLine
 10
0.0
 20
0.0
 30
0.0
 11
0.0
 21
-2.5
 31
0.0
  0
LINE
  5
8E
330
88
100
AcDbEntity
  8
FORMAT
 62
     0
100
AcDbLine
 10
0.0
 20
0.0
 30
0.0
 11
2.5
 21
0.0
 31
0.0
  0
LINE
  5
8F
330
88
100
AcDbEntity
  8
FORMAT
 62
     0
100
AcDbLine
 10
0.0
 20
5.0
 30
0.0
 11
0.0
 21
92.5
 31
0.0
  0
LINE
  5
90
330
88
100
AcDbEntity
  8
FORMAT
 62
     0
100
AcDbLine
 10
-5.0
 20
0.0
 30
0.0
 11
-92.5
 21
0.0
 31
0.0
  0
LINE
  5
91
330
88
100
AcDbEntity
  8
FORMAT
 62
     0
100
AcDbLine
 10
0.0
 20
-5.0
 30
0.0
 11
0.0
 21
-92.5
 31
0.0
  0
LINE
  5
92
330
88
100
AcDbEntity
  8
FORMAT
 62
     0
100
AcDbLine
 10
5.0
 20
0.0
 30
0.0
 11
92.5
 21
0.0
 31
0.0
  0
ENDBLK
  5
8A
330
88
100
AcDbEntity
  8
0
100
AcDbBlockEnd
  0
ENDSEC
  0
SECTION
  2
ENTITIES
  0
CIRCLE
  5
83
330
1F
100
AcDbEntity
  8
0
  6
Continuous
 62
     7
370
    25
100
AcDbCircle
 10
139.395004093
 20
107.5851680021
 30
0.0
 40
90.0
  0
CIRCLE
  5
84
330
1F
100
AcDbEntity
  8
0
  6
Continuous
 62
     7
370
    25
100
AcDbCircle
 10
139.395004093
 20
107.5851680021
 30
0.0
 40
73.60000000000001
  0
CIRCLE
  5
85
330
1F
100
AcDbEntity
  8
0
  6
Continuous
 62
     7
370
    25
100
AcDbCircle
 10
139.395004093
 20
107.5851680021
 30
0.0
 40
73.04567905194027
  0
CIRCLE
  5
86
330
1F
100
AcDbEntity
  8
0
  6
Continuous
 62
     7
370
    25
100
AcDbCircle
 10
139.395004093
 20
107.5851680021
 30
0.0
 40
45.55432094805978
  0
CIRCLE
  5
87
330
1F
100
AcDbEntity
  8
0
  6
Continuous
 62
     7
370
    25
100
AcDbCircle
 10
139.395004093
 20
107.5851680021
 30
0.0
 40
45.00000000000001
  0
INSERT
  5
93
330
1F
100
AcDbEntity
  8
FORMAT
 62
     7
100
AcDbBlockReference
  2
SW_CENTERMARKSYMBOL_0
 10
139.395004093
 20
107.5851680021
 30
0.0
  0
ARC
  5
94
330
1F
100
AcDbEntity
  8
0
  6
Continuous
 62
     7
370
    25
100
AcDbCircle
 10
-172.4149686
 20
195.5851680021
 30
0.0
 40
2.00000000000002
100
AcDbArc
 50
62.7648533007
 51
90.0
  0
ARC
  5
95
330
1F
100
AcDbEntity
  8
0
  6
Continuous
 62
     7
370
    25
100
AcDbCircle
 10
-172.4149686
 20
19.5851680021
 30
0.0
 40
2.000000000000007
100
AcDbArc
 50
270.0
 51
297.2351466993
  0
LINE
  5
96
330
1F
100
AcDbEntity
  8
0
  6
Continuous
 62
     7
370
    25
100
AcDbLine
 10
-172.4149686572
 20
197.5851715784
 30
0.0
 11
-276.9304727492
 21
197.5851715784
 31
0.0
  0
LINE
  5
97
330
1F
100
AcDbEntity
  8
0
  6
Continuous
 62
     7
370
    25
100
AcDbLine
 10
-276.9304727492
 20
17.5851644258
 30
0.0
 11
-172.4149686572
 21
17.5851644258
 31
0.0
  0
LINE
  5
98
330
1F
100
AcDbEntity
  8
0
  6
Continuous
 62
     7
370
    25
100
AcDbLine
 10
-171.4996815947
 20
17.8068937044
 30
0.0
 11
-104.3612537262
 21
52.3634390216
 31
0.0
  0
LINE
  5
99
330
1F
100
AcDbEntity
  8
0
  6
Continuous
 62
     7
370
    25
100
AcDbLine
 10
-104.3612537262
 20
162.8068969827
 30
0.0
 11
-171.4996815947
 21
197.3634422998
 31
0.0
  0
ARC
  5
9A
330
1F
100
AcDbEntity
  8
0
  6
Continuous
 62
     7
370
    25
100
AcDbCircle
 10
-103.4459680034
 20
164.5851680021
 30
0.0
 40
2.000000000000028
100
AcDbArc
 50
242.7648533007
 51
270.0
  0
ARC
  5
9B
330
1F
100
AcDbEntity
  8
0
  6
Continuous
 62
     7
370
    25
100
AcDbCircle
 10
-103.4459680034
 20
50.5851680021
 30
0.0
 40
2.000000000000007
100
AcDbArc
 50
90.0
 51
117.2351466993
  0
LINE
  5
9C
330
1F
100
AcDbEntity
  8
0
  6
Continuous
 62
     7
370
    25
100
AcDbLine
 10
-21.930470067
 20
162.5851677041
 30
0.0
 11
-103.4459685263
 21
162.5851677041
 31
0.0
  0
LINE
  5
9D
330
1F
100
AcDbEntity
  8
0
  6
Continuous
 62
     7
370
    25
100
AcDbLine
 10
-103.4459685263
 20
52.5851683001
 30
0.0
 11
-21.930470067
 21
52.5851683001
 31
0.0
  0
LINE
  5
9E
330
1F
100
AcDbEntity
  8
0
  6
Continuous
 62
     7
370
    25
100
AcDbLine
 10
-276.9304727492
 20
197.5851715784
 30
0.0
 11
-276.9304727492
 21
17.5851644258
 31
0.0
  0
LINE
  5
9F
330
1F
100
AcDbEntity
  8
0
  6
Continuous
 62
     7
370
    25
100
AcDbLine
 10
-21.930470067
 20
162.5851677041
 30
0.0
 11
-21.930470067
 21
52.5851683001
 31
0.0
  0
LINE
  5
A0
330
1F
100
AcDbEntity
  8
0
  6
Continuous
 62
     1
370
    25
100
AcDbLine
 10
-171.4996815947
 20
197.3634422998
 30
0.0
 11
-171.4996815947
 21
17.8068937044
 31
0.0
  0
LINE
  5
A1
330
1F
100
AcDbEntity
  8
0
  6
Continuous
 62
     1
370
    25
100
AcDbLine
 10
-172.4149686572
 20
197.5851715784
 30
0.0
 11
-172.4149686572
 21
17.5851644258
 31
0.0
  0
LINE
  5
A2
330
1F
100
AcDbEntity
  8
0
  6
Continuous
 62
     1
370
    25
100
AcDbLine
 10
-104.3612537262
 20
162.8068969827
 30
0.0
 11
-104.3612537262
 21
52.3634390216
 31
0.0
  0
LINE
  5
A3
330
1F
100
AcDbEntity
  8
0
  6
Continuous
 62
     1
370
    25
100
AcDbLine
 10
-103.4459685263
 20
162.5851677041
 30
0.0
 11
-103.4459685263
 21
52.5851683001
 31
0.0
  0
ARC
  5
A4
330
1F
100
AcDbEntity
  8
0
  6
Continuous
 62
     7
370
    25
100
AcDbCircle
 10
448.8713364926
 20
19.5851680021
 30
0.0
 40
2.0
100
AcDbArc
 50
242.7648533007
 51
270.0
  0
ARC
  5
A5
330
1F
100
AcDbEntity
  8
0
  6
Continuous
 62
     7
370
    25
100
AcDbCircle
 10
448.8713364926
 20
195.5851680021
 30
0.0
 40
2.0
100
AcDbArc
 50
90.0
 51
117.2351466993
  0
LINE
  5
A6
330
1F
100
AcDbEntity
  8
0
  6
Continuous
 62
     7
370
    25
100
AcDbLine
 10
448.8713365499
 20
17.5851644258
 30
0.0
 11
553.3868406419
 21
17.5851644258
 31
0.0
  0
LINE
  5
A7
330
1F
100
AcDbEntity
  8
0
  6
Continuous
 62
     7
370
    25
100
AcDbLine
 10
553.3868406419
 20
197.5851715784
 30
0.0
 11
448.8713365499
 21
197.5851715784
 31
0.0
  0
LINE
  5
A8
330
1F
100
AcDbEntity
  8
0
  6
Continuous
 62
     7
370
    25
100
AcDbLine
 10
447.9560494873
 20
197.3634422998
 30
0.0
 11
380.8176216189
 21
162.8068969827
 31
0.0
  0
LINE
  5
A9
330
1F
100
AcDbEntity
  8
0
  6
Continuous
 62
     7
370
    25
100
AcDbLine
 10
380.8176216189
 20
52.3634390216
 30
0.0
 11
447.9560494873
 21
17.8068937044
 31
0.0
  0
ARC
  5
AA
330
1F
100
AcDbEntity
  8
0
  6
Continuous
 62
     7
370
    25
100
AcDbCircle
 10
379.902335896
 20
50.5851680021
 30
0.0
 40
2.000000000000013
100
AcDbArc
 50
62.7648533007
 51
90.0
  0
ARC
  5
AB
330
1F
100
AcDbEntity
  8
0
  6
Continuous
 62
     7
370
    25
100
AcDbCircle
 10
379.902335896
 20
164.5851680021
 30
0.0
 40
2.000000000000028
100
AcDbArc
 50
270.0
 51
297.2351466993
  0
LINE
  5
AC
330
1F
100
AcDbEntity
  8
0
  6
Continuous
 62
     7
370
    25
100
AcDbLine
 10
298.3868379596
 20
52.5851683001
 30
0.0
 11
379.902336419
 21
52.5851683001
 31
0.0
  0
LINE
  5
AD
330
1F
100
AcDbEntity
  8
0
  6
Continuous
 62
     7
370
    25
100
AcDbLine
 10
379.902336419
 20
162.5851677041
 30
0.0
 11
298.3868379596
 21
162.5851677041
 31
0.0
  0
LINE
  5
AE
330
1F
100
AcDbEntity
  8
0
  6
Continuous
 62
     7
370
    25
100
AcDbLine
 10
553.3868406419
 20
107.5851680021
 30
0.0
 11
553.3868406419
 21
197.5851715784
 31
0.0
  0
LINE
  5
AF
330
1F
100
AcDbEntity
  8
0
  6
Continuous
 62
     7
370
    25
100
AcDbLine
 10
553.3868406419
 20
17.5851644258
 30
0.0
 11
553.3868406419
 21
107.5851680021
 31
0.0
  0
LINE
  5
B0
330
1F
100
AcDbEntity
  8
0
  6
Continuous
 62
     7
370
    25
100
AcDbLine
 10
298.3868379596
 20
107.5851680021
 30
0.0
 11
298.3868379596
 21
162.5851677041
 31
0.0
  0
LINE
  5
B1
330
1F
100
AcDbEntity
  8
0
  6
Continuous
 62
     7
370
    25
100
AcDbLine
 10
298.3868379596
 20
52.5851683001
 30
0.0
 11
298.3868379596
 21
107.5851680021
 31
0.0
  0
LINE
  5
B2
330
1F
100
AcDbEntity
  8
0
  6
Continuous
 62
     1
370
    25
100
AcDbLine
 10
447.9560494873
 20
107.5851680021
 30
0.0
 11
447.9560494873
 21
197.3634422998
 31
0.0
  0
LINE
  5
B3
330
1F
100
AcDbEntity
  8
0
  6
Continuous
 62
     1
370
    25
100
AcDbLine
 10
447.9560494873
 20
17.8068937044
 30
0.0
 11
447.9560494873
 21
107.5851680021
 31
0.0
  0
LINE
  5
B4
330
1F
100
AcDbEntity
  8
0
  6
Continuous
 62
     1
370
    25
100
AcDbLine
 10
448.8713365499
 20
107.5851680021
 30
0.0
 11
448.8713365499
 21
197.5851715784
 31
0.0
  0
LINE
  5
B5
330
1F
100
AcDbEntity
  8
0
  6
Continuous
 62
     1
370
    25
100
AcDbLine
 10
448.8713365499
 20
17.5851644258
 30
0.0
 11
448.8713365499
 21
107.5851680021
 31
0.0
  0
LINE
  5
B6
330
1F
100
AcDbEntity
  8
0
  6
Continuous
 62
     1
370
    25
100
AcDbLine
 10
380.8176216189
 20
107.5851680021
 30
0.0
 11
380.8176216189
 21
162.8068969827
 31
0.0
  0
LINE
  5
B7
330
1F
100
AcDbEntity
  8
0
  6
Continuous
 62
     1
370
    25
100
AcDbLine
 10
380.8176216189
 20
52.3634390216
 30
0.0
 11
380.8176216189
 21
107.5851680021
 31
0.0
  0
LINE
  5
B8
330
1F
100
AcDbEntity
  8
0
  6
Continuous
 62
     1
370
    25
100
AcDbLine
 10
379.902336419
 20
107.5851680021
 30
0.0
 11
379.902336419
 21
162.5851677041
 31
0.0
  0
LINE
  5
B9
330
1F
100
AcDbEntity
  8
0
  6
Continuous
 62
     1
370
    25
100
AcDbLine
 10
379.902336419
 20
52.5851683001
 30
0.0
 11
379.902336419
 21
107.5851680021
 31
0.0
  0
ARC
  5
BA
330
1F
100
AcDbEntity
  8
0
  6
Continuous
 62
     7
370
    25
100
AcDbCircle
 10
227.395004093
 20
384.6852937173
 30
0.0
 40
2.0
100
AcDbArc
 50
332.7648533007
 51
0.0
  0
ARC
  5
BB
330
1F
100
AcDbEntity
  8
0
  6
Continuous
 62
     7
370
    25
100
AcDbCircle
 10
51.395004093
 20
384.6852937173
 30
0.0
 40
2.0
100
AcDbArc
 50
180.0
 51
207.2351466993
  0
LINE
  5
BC
330
1F
100
AcDbEntity
  8
0
  6
Continuous
 62
     7
370
    25
100
AcDbLine
 10
229.3950076693
 20
384.6852937746
 30
0.0
 11
229.3950076693
 21
489.2007978666
 31
0.0
  0
LINE
  5
BD
330
1F
100
AcDbEntity
  8
0
  6
Continuous
 62
     7
370
    25
100
AcDbLine
 10
49.3950005168
 20
489.2007978666
 30
0.0
 11
49.3950005168
 21
384.6852937746
 31
0.0
  0
LINE
  5
BE
330
1F
100
AcDbEntity
  8
0
  6
Continuous
 62
     7
370
    25
100
AcDbLine
 10
49.6167297953
 20
383.7700067121
 30
0.0
 11
84.1732751125
 21
316.6315788436
 31
0.0
  0
LINE
  5
BF
330
1F
100
AcDbEntity
  8
0
  6
Continuous
 62
     7
370
    25
100
AcDbLine
 10
194.6167330736
 20
316.6315788436
 30
0.0
 11
229.1732783908
 21
383.7700067121
 31
0.0
  0
ARC
  5
C0
330
1F
100
AcDbEntity
  8
0
  6
Continuous
 62
     7
370
    25
100
AcDbCircle
 10
196.395004093
 20
315.7162931208
 30
0.0
 40
2.00000000000002
100
AcDbArc
 50
152.7648533007
 51
180.0
  0
ARC
  5
C1
330
1F
100
AcDbEntity
  8
0
  6
Continuous
 62
     7
370
    25
100
AcDbCircle
 10
82.395004093
 20
315.7162931208
 30
0.0
 40
2.00000000000002
100
AcDbArc
 50
0.0
 51
27.2351466993
  0
LINE
  5
C2
330
1F
100
AcDbEntity
  8
0
  6
Continuous
 62
     7
370
    25
100
AcDbLine
 10
194.395003795
 20
234.2007951844
 30
0.0
 11
194.395003795
 21
315.7162936437
 31
0.0
  0
LINE
  5
C3
330
1F
100
AcDbEntity
  8
0
  6
Continuous
 62
     7
370
    25
100
AcDbLine
 10
84.3950043911
 20
315.7162936437
 30
0.0
 11
84.3950043911
 21
234.2007951844
 31
0.0
  0
LINE
  5
C4
330
1F
100
AcDbEntity
  8
0
  6
Continuous
 62
     7
370
    25
100
AcDbLine
 10
229.3950076693
 20
489.2007978666
 30
0.0
 11
49.3950005168
 21
489.2007978666
 31
0.0
  0
LINE
  5
C5
330
1F
100
AcDbEntity
  8
0
  6
Continuous
 62
     7
370
    25
100
AcDbLine
 10
194.395003795
 20
234.2007951844
 30
0.0
 11
84.3950043911
 21
234.2007951844
 31
0.0
  0
LINE
  5
C6
330
1F
100
AcDbEntity
  8
0
  6
Continuous
 62
     1
370
    25
100
AcDbLine
 10
229.1732783908
 20
383.7700067121
 30
0.0
 11
49.6167297953
 21
383.7700067121
 31
0.0
  0
LINE
  5
C7
330
1F
100
AcDbEntity
  8
0
  6
Continuous
 62
     1
370
    25
100
AcDbLine
 10
229.3950076693
 20
384.6852937746
 30
0.0
 11
49.3950005168
 21
384.6852937746
 31
0.0
  0
LINE
  5
C8
330
1F
100
AcDbEntity
  8
0
  6
Continuous
 62
     1
370
    25
100
AcDbLine
 10
194.6167330736
 20
316.6315788436
 30
0.0
 11
84.1732751125
 21
316.6315788436
 31
0.0
  0
LINE
  5
C9
330
1F
100
AcDbEntity
  8
0
  6
Continuous
 62
     1
370
    25
100
AcDbLine
 10
194.395003795
 20
315.7162936437
 30
0.0
 11
84.3950043911
 21
315.7162936437
 31
0.0
  0
ARC
  5
CA
330
1F
100
AcDbEntity
  8
0
  6
Continuous
 62
     7
370
    25
100
AcDbCircle
 10
51.395004093
 20
-173.4846681358
 30
0.0
 40
2.0
100
AcDbArc
 50
152.7648533007
 51
180.0
  0
ARC
  5
CB
330
1F
100
AcDbEntity
  8
0
  6
Continuous
 62
     7
370
    25
100
AcDbCircle
 10
227.395004093
 20
-173.4846681358
 30
0.0
 40
2.0
100
AcDbArc
 50
0.0
 51
27.2351466993
  0
LINE
  5
CC
330
1F
100
AcDbEntity
  8
0
  6
Continuous
 62
     7
370
    25
100
AcDbLine
 10
49.3950005168
 20
-173.484668193
 30
0.0
 11
49.3950005168
 21
-278.000172285
 31
0.0
  0
LINE
  5
CD
330
1F
100
AcDbEntity
  8
0
  6
Continuous
 62
     7
370
    25
100
AcDbLine
 10
229.3950076693
 20
-278.000172285
 30
0.0
 11
229.3950076693
 21
-173.484668193
 31
0.0
  0
LINE
  5
CE
330
1F
100
AcDbEntity
  8
0
  6
Continuous
 62
     7
370
    25
100
AcDbLine
 10
229.1732783908
 20
-172.5693811305
 30
0.0
 11
194.6167330736
 21
-105.430953262
 31
0.0
  0
LINE
  5
CF
330
1F
100
AcDbEntity
  8
0
  6
Continuous
 62
     7
370
    25
100
AcDbLine
 10
84.1732751125
 20
-105.430953262
 30
0.0
 11
49.6167297953
 21
-172.5693811305
 31
0.0
  0
ARC
  5
D0
330
1F
100
AcDbEntity
  8
0
  6
Continuous
 62
     7
370
    25
100
AcDbCircle
 10
82.395004093
 20
-104.5156675392
 30
0.0
 40
2.000000000000014
100
AcDbArc
 50
332.7648533007
 51
0.0
  0
ARC
  5
D1
330
1F
100
AcDbEntity
  8
0
  6
Continuous
 62
     7
370
    25
100
AcDbCircle
 10
196.395004093
 20
-104.5156675392
 30
0.0
 40
2.000000000000013
100
AcDbArc
 50
180.0
 51
207.2351466993
  0
LINE
  5
D2
330
1F
100
AcDbEntity
  8
0
  6
Continuous
 62
     7
370
    25
100
AcDbLine
 10
84.3950043911
 20
-23.0001696028
 30
0.0
 11
84.3950043911
 21
-104.5156680622
 31
0.0
  0
LINE
  5
D3
330
1F
100
AcDbEntity
  8
0
  6
Continuous
 62
     7
370
    25
100
AcDbLine
 10
194.395003795
 20
-104.5156680622
 30
0.0
 11
194.395003795
 21
-23.0001696028
 31
0.0
  0
LINE
  5
D4
330
1F
100
AcDbEntity
  8
0
  6
Continuous
 62
     7
370
    25
100
AcDbLine
 10
49.3950005168
 20
-278.000172285
 30
0.0
 11
229.3950076693
 21
-278.000172285
 31
0.0
  0
LINE
  5
D5
330
1F
100
AcDbEntity
  8
0
  6
Continuous
 62
     7
370
    25
100
AcDbLine
 10
84.3950043911
 20
-23.0001696028
 30
0.0
 11
194.395003795
 21
-23.0001696028
 31
0.0
  0
LINE
  5
D6
330
1F
100
AcDbEntity
  8
0
  6
Continuous
 62
     1
370
    25
100
AcDbLine
 10
49.6167297953
 20
-172.5693811305
 30
0.0
 11
229.1732783908
 21
-172.5693811305
 31
0.0
  0
LINE
  5
D7
330
1F
100
AcDbEntity
  8
0
  6
Continuous
 62
     1
370
    25
100
AcDbLine
 10
49.3950005168
 20
-173.484668193
 30
0.0
 11
229.3950076693
 21
-173.484668193
 31
0.0
  0
LINE
  5
D8
330
1F
100
AcDbEntity
  8
0
  6
Continuous
 62
     1
370
    25
100
AcDbLine
 10
84.1732751125
 20
-105.430953262
 30
0.0
 11
194.6167330736
 21
-105.430953262
 31
0.0
  0
LINE
  5
D9
330
1F
100
AcDbEntity
  8
0
  6
Continuous
 62
     1
370
    25
100
AcDbLine
 10
84.3950043911
 20
-104.5156680622
 30
0.0
 11
194.395003795
 21
-104.5156680622
 31
0.0
  0
LINE
  5
DA
330
1F
100
AcDbEntity
  8
0
  6
Continuous
 62
     7
370
    25
100
AcDbLine
 10
449.1859080809
 20
-40.0230471785
 30
0.0
 11
375.2822863984
 21
2.6406054974
 31
0.0
  0
LINE
  5
DB
330
1F
100
AcDbEntity
  8
0
  6
Continuous
 62
     7
370
    25
100
AcDbLine
 10
285.2895978881
 20
-153.2481912146
 30
0.0
 11
359.1932195706
 21
-195.9118438905
 31
0.0
  0
SPLINE
  5
DC
330
1F
100
AcDbEntity
  8
0
  6
Continuous
 62
     7
370
    25
100
AcDbSpline
210
0.0
220
0.0
230
1.0
 70
     8
 71
     3
 72
    11
 73
     7
 74
     0
 42
0.000000001
 43
0.00000001
 40
0.0
 40
0.0
 40
0.0
 40
0.0
 40
0.2572846359689953
 40
0.5337196358153996
 40
0.8093349421002217
 40
1.0
 40
1.0
 40
1.0
 40
1.0
 10
459.6980117174892
 20
-49.76900977550082
 30
0.0
 10
459.1870229312635
 20
-49.06769594345437
 30
0.0
 10
458.1270111359109
 20
-47.61286766883781
 30
0.0
 10
456.3419173669335
 20
-45.62317019936357
 30
0.0
 10
454.6100737411469
 20
-43.91989079321964
 30
0.0
 10
453.429263423041
 20
-42.98524696889509
 30
0.0
 10
452.9464224437431
 20
-42.6030650616811
 30
0.0
  0
SPLINE
  5
DD
330
1F
100
AcDbEntity
  8
0
  6
Continuous
 62
     7
370
    25
100
AcDbSpline
210
0.0
220
0.0
230
1.0
 70
     8
 71
     3
 72
    11
 73
     7
 74
     0
 42
0.000000001
 43
0.00000001
 40
0.0
 40
0.0
 40
0.0
 40
0.0
 40
0.2590090884051342
 40
0.535414195720907
 40
0.8123886695521232
 40
1.0
 40
1.0
 40
1.0
 40
1.0
 10
363.3301052906356
 20
-197.9054278534914
 30
0.0
 10
364.1086557336401
 20
-198.1975653099378
 30
0.0
 10
365.7180469786969
 20
-198.8014612668183
 30
0.0
 10
368.2775336161436
 20
-199.4614471261053
 30
0.0
 10
370.669861583869
 20
-199.9236474356631
 30
0.0
 10
372.224141739878
 20
-200.0649097628589
 30
0.0
 10
372.8517988169383
 20
-200.1219550124195
 30
0.0
  0
LINE
  5
DE
330
1F
100
AcDbEntity
  8
0
  6
Continuous
 62
     7
370
    25
100
AcDbLine
 10
379.3702975792
 20
-200.193072721
 30
0.0
 11
436.6466319102
 21
-196.0936041232
 31
0.0
  0
LINE
  5
DF
330
1F
100
AcDbEntity
  8
0
  6
Continuous
 62
     7
370
    25
100
AcDbLine
 10
488.0763093176
 20
-107.005138303
 30
0.0
 11
462.9835363659
 21
-55.3549994279
 31
0.0
  0
LINE
  5
E0
330
1F
100
AcDbEntity
  8
0
  6
Continuous
 62
     7
370
    25
100
AcDbLine
 10
538.0959388834
 20
-131.7631391437
 30
0.0
 11
485.2960950898
 21
-101.2824381215
 31
0.0
  0
LINE
  5
E1
330
1F
100
AcDbEntity
  8
0
  6
Continuous
 62
     7
370
    25
100
AcDbLine
 10
430.3005638077
 20
-196.5478162559
 30
0.0
 11
483.1004076014
 21
-227.028517278
 31
0.0
  0
LWPOLYLINE
  5
E2
330
1F
100
AcDbEntity
  8
0
  6
Continuous
 62
     7
370
    25
100
AcDbPolyline
 90
      121
 70
   128
 43
0.0
 10
266.6463293076
 20
-112.0421593504
 10
266.7335469423
 20
-108.1457096736
 10
266.9949575018
 20
-104.1592428586
 10
267.4298392214
 20
-100.09368707
 10
268.0370119894
 20
-95.9601803166
 10
268.8148004686
 20
-91.7700586615
 10
269.761076243
 20
-87.5348056552
 10
270.8732472815
 20
-83.2660257181
 10
272.1482632059
 20
-78.9754251299
 10
273.5826363646
 20
-74.6747557567
 10
275.1724207588
 20
-70.3758135286
 10
276.9132752631
 20
-66.0903791295
 10
278.8004162102
 20
-61.8301966993
 10
280.8286753429
 20
-57.6069434213
 10
282.9924945455
 20
-53.4321991027
 10
285.285941649
 20
-49.317400549
 10
287.7027315046
 20
-45.2738293977
 10
290.2362365205
 20
-41.3125695341
 10
292.8795182717
 20
-37.4444766754
 10
295.6253275003
 20
-33.6801540359
 10
298.4661357254
 20
-30.0299158278
 10
301.3941642193
 20
-26.5037766175
 10
304.4013813733
 20
-23.1113859255
 10
307.4795448441
 20
-19.8620586488
 10
310.6202213109
 20
-16.7646906513
 10
313.8147983287
 20
-13.8277762561
 10
317.0545225237
 20
-11.0593618599
 10
320.3305134233
 20
-8.4670318667
 10
323.6337917731
 20
-6.0579045072
 10
326.9553022569
 20
-3.8385700537
 10
330.2859421432
 20
-1.8151168687
 10
333.6165820295
 20
0.0069049058
 10
336.9380925133
 20
1.622504828
 10
340.2413708632
 20
3.0272614705
 10
343.5173617628
 20
4.2173100597
 10
346.7570859578
 20
5.1894016002
 10
349.9516629755
 20
5.9408673202
 10
353.0923394423
 20
6.4696471867
 10
356.1705029132
 20
6.774291805
 10
359.1777200671
 20
6.853960134
 10
362.105748561
 20
6.7084506641
 10
364.9465567861
 20
6.3381398175
 10
367.6923660147
 20
5.7440610327
 10
370.3356477659
 20
4.9278363231
 10
372.8691527818
 20
3.8916990879
 10
375.2859426375
 20
2.6384941094
 10
377.579389741
 20
1.171653218
 10
379.7432089435
 20
-0.5047986269
 10
381.7714680762
 20
-2.3862737566
 10
383.6586090233
 20
-4.4676096272
 10
385.3994635277
 20
-6.7430961986
 10
386.9892479218
 20
-9.2065124354
 10
388.4236210805
 20
-11.8510898105
 10
389.6986370049
 20
-14.669588347
 10
390.8108080435
 20
-17.6542829355
 10
391.7570838179
 20
-20.7969891882
 10
392.534872297
 20
-24.0890953801
 10
393.142045065
 20
-27.5215753773
 10
393.5769267846
 20
-31.0850274201
 10
393.8383373442
 20
-34.7696760273
 10
393.9255549788
 20
-38.5654263667
 10
393.8383373442
 20
-42.4618760436
 10
393.5769267846
 20
-46.4483428585
 10
393.142045065
 20
-50.5138986472
 10
392.534872297
 20
-54.6474054006
 10
391.7570838179
 20
-58.8375270557
 10
390.8108080435
 20
-63.072780062
 10
389.6986370049
 20
-67.341559999
 10
388.4236210805
 20
-71.6321605872
 10
386.9892479218
 20
-75.9328299605
 10
385.3994635277
 20
-80.2317721885
 10
383.6586090233
 20
-84.5172065876
 10
381.7714680762
 20
-88.7773890178
 10
379.7432089435
 20
-93.0006422959
 10
377.579389741
 20
-97.1753866144
 10
375.2859426375
 20
-101.2901851681
 10
372.8691527818
 20
-105.3337563194
 10
370.3356477659
 20
-109.295016183
 10
367.6923660147
 20
-113.1631090417
 10
364.9465567861
 20
-116.9274316813
 10
362.105748561
 20
-120.5776698894
 10
359.1777200671
 20
-124.1038090996
 10
356.1705029132
 20
-127.4961997917
 10
353.0923394423
 20
-130.7455270684
 10
349.9516629755
 20
-133.8428950658
 10
346.7570859578
 20
-136.7798094611
 10
343.5173617628
 20
-139.5482238572
 10
340.2413708632
 20
-142.1405538504
 10
336.9380925133
 20
-144.5496812099
 10
333.6165820295
 20
-146.7690156634
 10
330.2859421432
 20
-148.7924688485
 10
326.9553022569
 20
-150.6144906229
 10
323.6337917731
 20
-152.2300905452
 10
320.3305134233
 20
-153.6348471876
 10
317.0545225237
 20
-154.8248957769
 10
313.8147983287
 20
-155.7969873173
 10
310.6202213109
 20
-156.5484530373
 10
307.4795448441
 20
-157.0772329038
 10
304.4013813733
 20
-157.3818775221
 10
301.3941642193
 20
-157.4615458512
 10
298.4661357254
 20
-157.3160363812
 10
295.6253275003
 20
-156.9457255346
 10
292.8795182717
 20
-156.3516467499
 10
290.2362365205
 20
-155.5354220403
 10
287.7027315046
 20
-154.499284805
 10
285.285941649
 20
-153.2460798265
 10
282.9924945455
 20
-151.7792389351
 10
280.8286753429
 20
-150.1027870902
 10
278.8004162102
 20
-148.2213119606
 10
276.9132752631
 20
-146.1399760899
 10
275.1724207588
 20
-143.8644895185
 10
273.5826363646
 20
-141.4010732817
 10
272.1482632059
 20
-138.7564959066
 10
270.8732472815
 20
-135.9379973701
 10
269.761076243
 20
-132.9533027816
 10
268.8148004686
 20
-129.8105965289
 10
268.0370119894
 20
-126.5184903371
 10
267.4298392214
 20
-123.0860103398
 10
266.9949575018
 20
-119.5225582971
 10
266.7335469423
 20
-115.8379096898
 10
266.6463293076
 20
-112.0421593504
  0
LWPOLYLINE
  5
E3
330
1F
100
AcDbEntity
  8
0
  6
Continuous
 62
     7
370
    25
100
AcDbPolyline
 90
      109
 70
   128
 43
0.0
 10
278.2428818931
 20
-105.3476120403
 10
278.330931928
 20
-101.8024286161
 10
278.5947817363
 20
-98.1675818198
 10
279.0335356977
 20
-94.455372435
 10
279.6457081356
 20
-90.6783627891
 10
280.4292391229
 20
-86.8493246628
 10
281.3814628713
 20
-82.9812252194
 10
282.4991656836
 20
-79.08714564
 10
283.7785648803
 20
-75.1802643915
 10
285.2153298726
 20
-71.2738009544
 10
286.8046006021
 20
-67.3809747596
 10
288.5409980772
 20
-63.5149565197
 10
290.4186454467
 20
-59.6888271659
 10
292.4311917074
 20
-55.9155337434
 10
294.5718275091
 20
-52.2078437853
 10
296.8333088622
 20
-48.5783042495
 10
299.2079834795
 20
-45.0391958936
 10
301.6878144838
 20
-41.6024922122
 10
304.2644120181
 20
-38.2798229376
 10
306.9290595874
 20
-35.0824314562
 10
309.672739083
 20
-32.0211360272
 10
312.4861676616
 20
-29.1062963262
 10
315.3598240868
 20
-26.3477769447
 10
318.2839869245
 20
-23.7549010061
 10
321.2487595678
 20
-21.3364600538
 10
324.2441117253
 20
-19.1006231795
 10
327.2599074093
 20
-17.0549573689
 10
330.2859421432
 20
-15.2063877702
 10
333.3119768772
 20
-13.5611720324
 10
336.3277725611
 20
-12.124874262
 10
339.3231247187
 20
-10.9023511484
 10
342.287897362
 20
-9.8977384686
 10
345.2120601996
 20
-9.1144478585
 10
348.0857166248
 20
-8.555114154
 10
350.8991452034
 20
-8.2216383605
 10
353.6428246991
 20
-8.1151488719
 10
356.3074722683
 20
-8.2360037559
 10
358.8840698026
 20
-8.5837968394
 10
361.363900807
 20
-9.157348587
 10
363.7385754242
 20
-9.9547159894
 10
366.0000567773
 20
-10.9732047327
 10
368.140692579
 20
-12.2093692021
 10
370.1532388397
 20
-13.659026172
 10
372.0308862092
 20
-15.3172700177
 10
373.7672836843
 20
-17.1784864063
 10
375.3565544138
 20
-19.2363796744
 10
376.7933194061
 20
-21.4839895611
 10
378.0727186028
 20
-23.9137079394
 10
379.1904214152
 20
-26.5173153202
 10
380.1426451636
 20
-29.2860006253
 10
380.9261761508
 20
-32.2103931296
 10
381.5383485887
 20
-35.2806035234
 10
381.9771025501
 20
-38.4862383672
 10
382.2409523585
 20
-41.816450659
 10
382.3290023934
 20
-45.2599736768
 10
382.2409523585
 20
-48.8051571011
 10
381.9771025501
 20
-52.4400038973
 10
381.5383485887
 20
-56.1522132821
 10
380.9261761508
 20
-59.9292229281
 10
380.1426451636
 20
-63.7582610543
 10
379.1904214152
 20
-67.6263604977
 10
378.0727186028
 20
-71.5204400771
 10
376.7933194061
 20
-75.4273213257
 10
375.3565544138
 20
-79.3337847628
 10
373.7672836843
 20
-83.2266109575
 10
372.0308862092
 20
-87.0926291974
 10
370.1532388397
 20
-90.9187585512
 10
368.140692579
 20
-94.6920519737
 10
366.0000567773
 20
-98.3997419318
 10
363.7385754242
 20
-102.0292814677
 10
361.363900807
 20
-105.5683898236
 10
358.8840698026
 20
-109.0050935049
 10
356.3074722683
 20
-112.3277627795
 10
353.6428246991
 20
-115.525154261
 10
350.8991452034
 20
-118.5864496899
 10
348.0857166248
 20
-121.5012893909
 10
345.2120601996
 20
-124.2598087724
 10
342.287897362
 20
-126.852684711
 10
339.3231247187
 20
-129.2711256633
 10
336.3277725611
 20
-131.5069625376
 10
333.3119768772
 20
-133.5526283482
 10
330.2859421432
 20
-135.4011979469
 10
327.2599074093
 20
-137.0464136848
 10
324.2441117253
 20
-138.4827114551
 10
321.2487595678
 20
-139.7052345687
 10
318.2839869245
 20
-140.7098472485
 10
315.3598240868
 20
-141.4931378586
 10
312.4861676616
 20
-142.0524715632
 10
309.672739083
 20
-142.3859473567
 10
306.9290595874
 20
-142.4924368452
 10
304.2644120181
 20
-142.3715819612
 10
301.6878144838
 20
-142.0237888778
 10
299.2079834795
 20
-141.4502371301
 10
296.8333088622
 20
-140.6528697278
 10
294.5718275091
 20
-139.6343809844
 10
292.4311917074
 20
-138.398216515
 10
290.4186454467
 20
-136.9485595452
 10
288.5409980772
 20
-135.2903156994
 10
286.8046006021
 20
-133.4290993109
 10
285.2153298726
 20
-131.3712060427
 10
283.7785648803
 20
-129.1235961561
 10
282.4991656836
 20
-126.6938777777
 10
281.3814628713
 20
-124.090270397
 10
280.4292391229
 20
-121.3215850918
 10
279.6457081356
 20
-118.3971925875
 10
279.0335356977
 20
-115.3269821937
 10
278.5947817363
 20
-112.12134735
 10
278.330931928
 20
-108.7911350582
 10
278.2428818931
 20
-105.3476120403
  0
ARC
  5
E4
330
1F
100
AcDbEntity
  8
0
  6
Continuous
 62
     7
370
    25
100
AcDbCircle
 10
434.0944929326
 20
-66.1550622269
 30
0.0
 40
30.17669666591669
100
AcDbArc
 50
51.6923648176
 51
59.9932760783
  0
LWPOLYLINE
  5
E5
330
1F
100
AcDbEntity
  8
0
  6
Continuous
 62
     7
370
    25
100
AcDbPolyline
 90
        3
 70
   128
 43
0.0
 10
363.1530740389
 20
-197.8268420027
 10
361.6063531872
 20
-197.162937481
 10
359.1932195706
 20
-195.9118438905
  0
ARC
  5
E6
330
1F
100
AcDbEntity
  8
0
  6
Continuous
 62
     7
370
    25
100
AcDbCircle
 10
422.7356616243
 20
-75.1734844343
 30
0.0
 40
44.84456801868301
100
AcDbArc
 50
14.292831139
 51
34.2879706675
  0
ARC
  5
E7
330
1F
100
AcDbEntity
  8
0
  6
Continuous
 62
     7
370
    25
100
AcDbCircle
 10
376.5308973136
 20
-156.6529981905
 30
0.0
 40
43.63346461991966
100
AcDbArc
 50
265.4515337878
 51
286.0927553363
  0
ARC
  5
E8
330
1F
100
AcDbEntity
  8
0
  6
Continuous
 62
     7
370
    25
100
AcDbCircle
 10
462.4208287201
 20
-119.41229821
 30
0.0
 40
28.49809294753766
100
AcDbArc
 50
17.8187080346
 51
25.80871746
  0
LWPOLYLINE
  5
E9
330
1F
100
AcDbEntity
  8
0
  6
Continuous
 62
     7
370
    25
100
AcDbPolyline
 90
        3
 70
   128
 43
0.0
 10
440.2445252922
 20
-195.5968993767
 10
438.276774546
 20
-195.9267792057
 10
436.6466319102
 20
-196.0936041232
  0
LWPOLYLINE
  5
EA
330
1F
100
AcDbEntity
  8
0
  6
Continuous
 62
     7
370
    25
100
AcDbPolyline
 90
       49
 70
   128
 43
0.0
 10
538.0959388834
 20
-131.7631391437
 10
538.3294324242
 20
-131.9002420939
 10
540.1069388816
 20
-133.1078079826
 10
541.7498045973
 20
-134.5265767638
 10
543.2505327006
 20
-136.1500731528
 10
544.6022769628
 20
-137.9708895988
 10
545.7988655047
 20
-139.980719747
 10
546.8348429436
 20
-142.1703919029
 10
547.70548093
 20
-144.5299146614
 10
548.4068071234
 20
-147.0485217766
 10
548.9356209975
 20
-149.714722354
 10
549.2895096452
 20
-152.5163518027
 10
549.4668583154
 20
-155.4406258295
 10
549.4668583154
 20
-158.4742020371
 10
549.2895096452
 20
-161.60323848
 10
548.9356209975
 20
-164.8134590642
 10
548.4068071234
 20
-168.0902151446
 10
547.70548093
 20
-171.4185562471
 10
546.8348429436
 20
-174.783296228
 10
545.7988655047
 20
-178.1690824749
 10
544.6022769628
 20
-181.5604643464
 10
543.2505327006
 20
-184.9419714972
 10
541.7498045973
 20
-188.2981716727
 10
540.1069388816
 20
-191.6137528344
 10
538.3294324242
 20
-194.8735839953
 10
536.4253932249
 20
-198.0627973455
 10
534.4035088031
 20
-201.1668384407
 10
532.2730080014
 20
-204.1715399625
 10
530.0436096197
 20
-207.0631970004
 10
527.7254868534
 20
-209.8286119149
 10
525.3292146105
 20
-212.4551734212
 10
522.8657286808
 20
-214.9308892853
 10
520.3462691022
 20
-217.2444676878
 10
517.7823307689
 20
-219.3853518209
 10
515.1856130535
 20
-221.3437733057
 10
512.5679636656
 20
-223.1107967692
 10
509.9413266268
 20
-224.6783559617
 10
507.3176867887
 20
-226.0393040368
 10
504.7090145148
 20
-227.1874272347
 10
502.1272138204
 20
-228.117486988
 10
499.5840637616
 20
-228.8252446313
 10
497.0911685513
 20
-229.307465864
 10
494.6599025703
 20
-229.5619494529
 10
492.3013596592
 20
-229.587538254
 10
490.0263017526
 20
-229.3841123635
 10
487.8451075117
 20
-228.9526035619
 10
485.7677288613
 20
-228.294977819
 10
483.8036488422
 20
-227.4142383323
 10
483.1004076014
 20
-227.028517278
  0
LWPOLYLINE
  5
EB
330
1F
100
AcDbEntity
  8
0
  6
Continuous
 62
     1
370
    25
100
AcDbPolyline
 90
       59
 70
   128
 43
0.0
 10
452.8005324447
 20
-42.4755962819
 10
453.6468306261
 20
-43.1684513029
 10
455.6750897588
 20
-45.0499264325
 10
457.5622307059
 20
-47.1312623032
 10
459.3030852102
 20
-49.4067488746
 10
460.8928696044
 20
-51.8701651114
 10
462.3272427631
 20
-54.5147424865
 10
463.6022586875
 20
-57.333241023
 10
464.714429726
 20
-60.3179356115
 10
465.6607055004
 20
-63.4606418642
 10
466.4384939796
 20
-66.752748056
 10
467.0456667476
 20
-70.1852280533
 10
467.4805484672
 20
-73.748680096
 10
467.7419590267
 20
-77.4333287033
 10
467.8291766614
 20
-81.2290790427
 10
467.7419590267
 20
-85.1255287196
 10
467.4805484672
 20
-89.1119955345
 10
467.0456667476
 20
-93.1775513231
 10
466.4384939796
 20
-97.3110580765
 10
465.6607055004
 20
-101.5011797316
 10
464.714429726
 20
-105.7364327379
 10
463.6022586875
 20
-110.005212675
 10
462.3272427631
 20
-114.2958132632
 10
460.8928696044
 20
-118.5964826364
 10
459.3030852102
 20
-122.8954248645
 10
457.5622307059
 20
-127.1808592636
 10
455.6750897588
 20
-131.4410416938
 10
453.6468306261
 20
-135.6642949718
 10
451.4830114235
 20
-139.8390392904
 10
449.18956432
 20
-143.9538378441
 10
446.7727744644
 20
-147.9974089954
 10
444.2392694485
 20
-151.958668859
 10
441.5959876973
 20
-155.8267617177
 10
438.8501784687
 20
-159.5910843572
 10
436.0093702436
 20
-163.2413225653
 10
433.0813417497
 20
-166.7674617756
 10
430.0741245957
 20
-170.1598524676
 10
426.9959611249
 20
-173.4091797443
 10
423.8552846581
 20
-176.5065477418
 10
420.6607076403
 20
-179.443462137
 10
417.4209834453
 20
-182.2118765332
 10
414.1449925457
 20
-184.8042065264
 10
410.8417141959
 20
-187.2133338859
 10
407.5202037121
 20
-189.4326683394
 10
404.1895638258
 20
-191.4561215244
 10
400.8589239395
 20
-193.2781432989
 10
397.5374134557
 20
-194.8937432211
 10
394.2341351058
 20
-196.2984998636
 10
390.9581442062
 20
-197.4885484528
 10
387.7184200112
 20
-198.4606399933
 10
384.5238429935
 20
-199.2121057133
 10
381.3831665267
 20
-199.7408855798
 10
378.3050030558
 20
-200.0455301981
 10
375.2977859019
 20
-200.1251985271
 10
372.369757408
 20
-199.9796890572
 10
369.5289491829
 20
-199.6093782106
 10
366.7831399543
 20
-199.0152994258
 10
364.1398582031
 20
-198.1990747162
 10
363.1530740389
 20
-197.8268420027
  0
ARC
  5
EC
330
1F
100
AcDbEntity
  8
0
  6
Continuous
 62
     1
370
    25
100
AcDbCircle
 10
477.1445154403
 20
-160.0834398538
 30
0.0
 40
127.3275120945801
100
AcDbArc
 50
147.4649920809
 51
152.5403869084
  0
LWPOLYLINE
  5
ED
330
1F
100
AcDbEntity
  8
0
  6
Continuous
 62
     1
370
    25
100
AcDbPolyline
 90
       41
 70
   128
 43
0.0
 10
466.1921390646
 20
-64.1023576054
 10
466.9323430915
 20
-67.2525457277
 10
467.5380143781
 20
-70.6765722785
 10
467.9718266214
 20
-74.2312439164
 10
468.2325944415
 20
-77.9068140573
 10
468.3195960736
 20
-81.6932137247
 10
468.2325944415
 20
-85.5800633384
 10
467.9718266214
 20
-89.5567095958
 10
467.5380143781
 20
-93.6122501885
 10
466.9323430915
 20
-97.735569922
 10
466.1564670257
 20
-101.9153707541
 10
465.212525133
 20
-106.1401889076
 10
464.1030936396
 20
-110.3984518999
 10
462.8312176554
 20
-114.6784823486
 10
461.4003795637
 20
-118.9685572845
 10
459.814509558
 20
-123.2569081527
 10
458.0779487639
 20
-127.531784688
 10
456.1954545068
 20
-131.7814701244
 10
454.1721897757
 20
-135.9943207388
 10
452.0137021495
 20
-140.1587810574
 10
449.7259027237
 20
-144.263438608
 10
447.3150713787
 20
-148.2970482545
 10
444.7878067306
 20
-152.2485489229
 10
442.1510366675
 20
-156.1071153135
 10
439.4119946423
 20
-159.8621655036
 10
436.578182794
 20
-163.5034065712
 10
433.6573693137
 20
-167.0208604514
 10
430.6575594684
 20
-170.4048928303
 10
427.5869797961
 20
-173.6462161863
 10
424.4540412272
 20
-176.7359536646
 10
421.2673338164
 20
-179.6656299521
 10
418.0355911808
 20
-182.4272283078
 10
414.7676714027
 20
-185.0131650864
 10
411.4725313459
 20
-187.4163593176
 10
408.1592039362
 20
-189.6302275712
 10
404.8367695144
 20
-191.6486944105
 10
401.5143350927
 20
-193.4662287029
 10
398.2010076829
 20
-195.0778468489
 10
394.9058676261
 20
-196.4791403465
 10
391.637947848
 20
-197.6662634319
 10
388.6257955615
 20
-198.5766510742
  0
LWPOLYLINE
  5
EE
330
1F
100
AcDbEntity
  8
0
  6
Continuous
 62
     1
370
    25
100
AcDbPolyline
 90
       35
 70
   128
 43
0.0
 10
489.5518546789
 20
-110.691705795
 10
489.9710709418
 20
-112.0936599922
 10
490.5760178294
 20
-114.6757574758
 10
491.0100618804
 20
-117.3966291041
 10
491.271266974
 20
-120.2441204073
 10
491.3584661694
 20
-123.2055142449
 10
491.271266974
 20
-126.2675861306
 10
491.0100618804
 20
-129.4166584155
 10
490.5760178294
 20
-132.6386666382
 10
489.9710709418
 20
-135.919220931
 10
489.1979238843
 20
-139.2436700894
 10
488.2600300644
 20
-142.597165639
 10
487.1615778251
 20
-145.9647314165
 10
485.9074746401
 20
-149.3313244055
 10
484.5033207718
 20
-152.6819107802
 10
482.955385564
 20
-156.0015252192
 10
481.2705863682
 20
-159.2753393451
 10
479.4564437627
 20
-162.488736246
 10
477.5210631132
 20
-165.6273606639
 10
475.473087158
 20
-168.6771980786
 10
473.3216630802
 20
-171.6246210932
 10
471.0763990442
 20
-174.4564723196
 10
468.7473246828
 20
-177.160099357
 10
466.3448397309
 20
-179.7234300724
 10
463.8796745128
 20
-182.1350136619
 10
461.3628412096
 20
-184.3840822438
 10
458.8055792006
 20
-186.4605884964
 10
456.2193096231
 20
-188.3552592661
 10
453.6155837593
 20
-190.0596314472
 10
451.0060305175
 20
-191.5660944677
 10
448.4023046538
 20
-192.8679201802
 10
445.8160350763
 20
-193.9592927049
 10
443.2587730673
 20
-194.8353383212
 10
440.7419397641
 20
-195.4921436178
 10
440.2445252922
 20
-195.5968993767
  0
LWPOLYLINE
  5
EF
330
1F
100
AcDbEntity
  8
0
  6
Continuous
 62
     1
370
    25
100
AcDbPolyline
 90
       41
 70
   128
 43
0.0
 10
486.933863671
 20
-104.6535690323
 10
486.9621152304
 20
-104.6959325081
 10
488.1587037723
 20
-106.7057626562
 10
489.1946812112
 20
-108.8954348121
 10
490.0653191976
 20
-111.2549575706
 10
490.766645391
 20
-113.7735646859
 10
491.2954592651
 20
-116.4397652633
 10
491.6493479128
 20
-119.2413947119
 10
491.826696583
 20
-122.1656687388
 10
491.826696583
 20
-125.1992449464
 10
491.6493479128
 20
-128.3282813893
 10
491.2954592651
 20
-131.5385019735
 10
490.766645391
 20
-134.8152580539
 10
490.0653191976
 20
-138.1435991563
 10
489.1946812112
 20
-141.5083391373
 10
488.1587037723
 20
-144.8941253842
 10
486.9621152304
 20
-148.2855072556
 10
485.6103709682
 20
-151.6670144065
 10
484.1096428649
 20
-155.023214582
 10
482.4667771492
 20
-158.3387957437
 10
480.6892706918
 20
-161.5986269045
 10
478.7852314925
 20
-164.7878402548
 10
476.7633470707
 20
-167.8918813499
 10
474.632846269
 20
-170.8965828718
 10
472.4034478873
 20
-173.7882399097
 10
470.085325121
 20
-176.5536548241
 10
467.6890528781
 20
-179.1802163305
 10
465.2255669484
 20
-181.6559321945
 10
462.7061073698
 20
-183.9695105971
 10
460.1421690365
 20
-186.1103947302
 10
457.5454513211
 20
-188.068816215
 10
454.9278019332
 20
-189.8358396785
 10
452.3011648944
 20
-191.403398871
 10
449.6775250563
 20
-192.7643469461
 10
447.0688527824
 20
-193.912470144
 10
444.487052088
 20
-194.8425298973
 10
441.9439020292
 20
-195.5502875405
 10
439.4510068189
 20
-196.0325087732
 10
437.0197408379
 20
-196.2869923621
 10
434.6611979268
 20
-196.3125811632
 10
434.0389076111
 20
-196.2802502476
  0
ENDSEC
  0
SECTION
  2
OBJECTS
  0
DICTIONARY
  5
C
330
0
100
AcDbDictionary
281
     1
  3
ACAD_GROUP
350
D
  3
ACAD_LAYOUT
350
1A
  3
ACAD_MLINESTYLE
350
17
  3
ACAD_PLOTSETTINGS
350
19
  3
ACAD_PLOTSTYLENAME
350
E
  3
ACAD_SCALELIST
350
47
  0
DICTIONARY
  5
D
102
{ACAD_REACTORS
330
C
102
}
330
C
100
AcDbDictionary
281
     1
  0
DICTIONARY
  5
1A
102
{ACAD_REACTORS
330
C
102
}
330
C
100
AcDbDictionary
281
     1
  3
Layout1
350
1E
  3
Layout2
350
26
  3
Model
350
22
  0
DICTIONARY
  5
17
102
{ACAD_REACTORS
330
C
102
}
330
C
100
AcDbDictionary
281
     1
  3
Standard
350
18
  0
DICTIONARY
  5
19
102
{ACAD_REACTORS
330
C
102
}
330
C
100
AcDbDictionary
281
     1
  0
ACDBDICTIONARYWDFLT
  5
E
102
{ACAD_REACTORS
330
C
102
}
330
C
100
AcDbDictionary
281
     1
  3
Normal
350
F
100
AcDbDictionaryWithDefault
340
F
  0
DICTIONARY
  5
47
102
{ACAD_REACTORS
330
C
102
}
330
C
100
AcDbDictionary
281
     1
  3
A0
350
48
  3
A1
350
49
  3
A2
350
4A
  3
A3
350
4B
  3
A4
350
4C
  3
A5
350
4D
  3
A6
350
4E
  3
A7
350
4F
  3
A8
350
50
  3
A9
350
51
  3
B0
350
52
  3
B1
350
53
  3
B2
350
54
  3
B3
350
55
  3
B4
350
56
  3
B5
350
57
  3
B6
350
58
  3
B7
350
59
  3
B8
350
5A
  3
B9
350
5B
  3
C0
350
5C
  3
C1
350
5D
  3
C2
350
5E
  3
C3
350
5F
  3
C4
350
60
  3
C5
350
61
  3
C6
350
62
  3
C7
350
63
  3
C8
350
64
  3
C9
350
65
  3
D0
350
66
  3
D1
350
67
  3
D2
350
68
  0
LAYOUT
  5
1E
102
{ACAD_REACTORS
330
1A
102
}
330
1A
100
AcDbPlotSettings
  1

  2
none_device
  4

  6

 40
0.0
 41
0.0
 42
0.0
 43
0.0
 44
0.0
 45
0.0
 46
0.0
 47
0.0
 48
0.0
 49
0.0
140
0.0
141
0.0
142
1.0
143
1.0
 70
   688
 72
     1
 73
     0
 74
     5
  7

 75
    16
147
1.0
148
0.0
149
0.0
100
AcDbLayout
  1
Layout1
 70
     1
 71
     1
 10
0.0
 20
0.0
 11
420.0
 21
297.0
 12
0.0
 22
0.0
 32
0.0
 14
1.0000000000E+20
 24
1.0000000000E+20
 34
1.0000000000E+20
 15
-1.0000000000E+20
 25
-1.0000000000E+20
 35
-1.0000000000E+20
146
0.0
 13
0.0
 23
0.0
 33
0.0
 16
1.0
 26
0.0
 36
0.0
 17
0.0
 27
1.0
 37
0.0
 76
     0
330
1B
  0
LAYOUT
  5
26
102
{ACAD_REACTORS
330
1A
102
}
330
1A
100
AcDbPlotSettings
  1

  2
none_device
  4

  6

 40
0.0
 41
0.0
 42
0.0
 43
0.0
 44
0.0
 45
0.0
 46
0.0
 47
0.0
 48
0.0
 49
0.0
140
0.0
141
0.0
142
1.0
143
1.0
 70
   688
 72
     1
 73
     0
 74
     5
  7

 75
    16
147
1.0
148
0.0
149
0.0
100
AcDbLayout
  1
Layout2
 70
     1
 71
     2
 10
0.0
 20
0.0
 11
0.0
 21
0.0
 12
0.0
 22
0.0
 32
0.0
 14
0.0
 24
0.0
 34
0.0
 15
0.0
 25
0.0
 35
0.0
146
0.0
 13
0.0
 23
0.0
 33
0.0
 16
1.0
 26
0.0
 36
0.0
 17
0.0
 27
1.0
 37
0.0
 76
     0
330
23
  0
LAYOUT
  5
22
102
{ACAD_REACTORS
330
1A
102
}
330
1A
100
AcDbPlotSettings
  1

  2
none_device
  4
Letter_(8.50_x_11.00_Inches)
  6

 40
6.35
 41
6.35
 42
6.35000508
 43
6.35000508
 44
215.9
 45
279.4
 46
0.0
 47
0.0
 48
0.0
 49
0.0
140
0.0
141
0.0
142
1.0
143
1.0
 70
  1712
 72
     1
 73
     0
 74
     0
  7

 75
     0
147
1.0
148
0.0
149
0.0
100
AcDbLayout
  1
Model
 70
     1
 71
     0
 10
0.0
 20
0.0
 11
279.4
 21
215.9
 12
0.0
 22
0.0
 32
0.0
 14
0.0
 24
0.0
 34
0.0
 15
279.4
 25
215.9
 35
0.0
146
0.0
 13
0.0
 23
0.0
 33
0.0
 16
1.0
 26
0.0
 36
0.0
 17
0.0
 27
1.0
 37
0.0
 76
     0
330
1F
331
29
  0
MLINESTYLE
  5
18
102
{ACAD_REACTORS
330
17
102
}
330
17
100
AcDbMlineStyle
  2
Standard
 70
     0
  3

 62
   256
 51
90.0
 52
90.0
 71
     2
 49
0.5
 62
   256
  6
BYLAYER
 49
-0.5
 62
   256
  6
BYLAYER
  0
ACDBPLACEHOLDER
  5
F
102
{ACAD_REACTORS
330
E
102
}
330
E
  0
SCALE
  5
48
102
{ACAD_REACTORS
330
47
102
}
330
47
100
AcDbScale
 70
     0
300
1:1
140
1.0
141
1.0
290
     1
  0
SCALE
  5
49
102
{ACAD_REACTORS
330
47
102
}
330
47
100
AcDbScale
 70
     0
300
1:2
140
1.0
141
2.0
290
     0
  0
SCALE
  5
4A
102
{ACAD_REACTORS
330
47
102
}
330
47
100
AcDbScale
 70
     0
300
1:4
140
1.0
141
4.0
290
     0
  0
SCALE
  5
4B
102
{ACAD_REACTORS
330
47
102
}
330
47
100
AcDbScale
 70
     0
300
1:5
140
1.0
141
5.0
290
     0
  0
SCALE
  5
4C
102
{ACAD_REACTORS
330
47
102
}
330
47
100
AcDbScale
 70
     0
300
1:8
140
1.0
141
8.0
290
     0
  0
SCALE
  5
4D
102
{ACAD_REACTORS
330
47
102
}
330
47
100
AcDbScale
 70
     0
300
1:10
140
1.0
141
10.0
290
     0
  0
SCALE
  5
4E
102
{ACAD_REACTORS
330
47
102
}
330
47
100
AcDbScale
 70
     0
300
1:16
140
1.0
141
16.0
290
     0
  0
SCALE
  5
4F
102
{ACAD_REACTORS
330
47
102
}
330
47
100
AcDbScale
 70
     0
300
1:20
140
1.0
141
20.0
290
     0
  0
SCALE
  5
50
102
{ACAD_REACTORS
330
47
102
}
330
47
100
AcDbScale
 70
     0
300
1:30
140
1.0
141
30.0
290
     0
  0
SCALE
  5
51
102
{ACAD_REACTORS
330
47
102
}
330
47
100
AcDbScale
 70
     0
300
1:40
140
1.0
141
40.0
290
     0
  0
SCALE
  5
52
102
{ACAD_REACTORS
330
47
102
}
330
47
100
AcDbScale
 70
     0
300
1:50
140
1.0
141
50.0
290
     0
  0
SCALE
  5
53
102
{ACAD_REACTORS
330
47
102
}
330
47
100
AcDbScale
 70
     0
300
1:100
140
1.0
141
100.0
290
     0
  0
SCALE
  5
54
102
{ACAD_REACTORS
330
47
102
}
330
47
100
AcDbScale
 70
     0
300
2:1
140
2.0
141
1.0
290
     0
  0
SCALE
  5
55
102
{ACAD_REACTORS
330
47
102
}
330
47
100
AcDbScale
 70
     0
300
4:1
140
4.0
141
1.0
290
     0
  0
SCALE
  5
56
102
{ACAD_REACTORS
330
47
102
}
330
47
100
AcDbScale
 70
     0
300
8:1
140
8.0
141
1.0
290
     0
  0
SCALE
  5
57
102
{ACAD_REACTORS
330
47
102
}
330
47
100
AcDbScale
 70
     0
300
10:1
140
10.0
141
1.0
290
     0
  0
SCALE
  5
58
102
{ACAD_REACTORS
330
47
102
}
330
47
100
AcDbScale
 70
     0
300
100:1
140
100.0
141
1.0
290
     0
  0
SCALE
  5
59
102
{ACAD_REACTORS
330
47
102
}
330
47
100
AcDbScale
 70
     0
300
1/128" = 1'-0"
140
0.0078125
141
12.0
290
     0
  0
SCALE
  5
5A
102
{ACAD_REACTORS
330
47
102
}
330
47
100
AcDbScale
 70
     0
300
1/64" = 1'-0"
140
0.015625
141
12.0
290
     0
  0
SCALE
  5
5B
102
{ACAD_REACTORS
330
47
102
}
330
47
100
AcDbScale
 70
     0
300
1/32" = 1'-0"
140
0.03125
141
12.0
290
     0
  0
SCALE
  5
5C
102
{ACAD_REACTORS
330
47
102
}
330
47
100
AcDbScale
 70
     0
300
1/16" = 1'-0"
140
0.0625
141
12.0
290
     0
  0
SCALE
  5
5D
102
{ACAD_REACTORS
330
47
102
}
330
47
100
AcDbScale
 70
     0
300
3/32" = 1'-0"
140
0.09375
141
12.0
290
     0
  0
SCALE
  5
5E
102
{ACAD_REACTORS
330
47
102
}
330
47
100
AcDbScale
 70
     0
300
1/8" = 1'-0"
140
0.125
141
12.0
290
     0
  0
SCALE
  5
5F
102
{ACAD_REACTORS
330
47
102
}
330
47
100
AcDbScale
 70
     0
300
3/16" = 1'-0"
140
0.1875
141
12.0
290
     0
  0
SCALE
  5
60
102
{ACAD_REACTORS
330
47
102
}
330
47
100
AcDbScale
 70
     0
300
1/4" = 1'-0"
140
0.25
141
12.0
290
     0
  0
SCALE
  5
61
102
{ACAD_REACTORS
330
47
102
}
330
47
100
AcDbScale
 70
     0
300
3/8" = 1'-0"
140
0.375
141
12.0
290
     0
  0
SCALE
  5
62
102
{ACAD_REACTORS
330
47
102
}
330
47
100
AcDbScale
 70
     0
300
1/2" = 1'-0"
140
0.5
141
12.0
290
     0
  0
SCALE
  5
63
102
{ACAD_REACTORS
330
47
102
}
330
47
100
AcDbScale
 70
     0
300
3/4" = 1'-0"
140
0.75
141
12.0
290
     0
  0
SCALE
  5
64
102
{ACAD_REACTORS
330
47
102
}
330
47
100
AcDbScale
 70
     0
300
1" = 1'-0"
140
1.0
141
12.0
290
     0
  0
SCALE
  5
65
102
{ACAD_REACTORS
330
47
102
}
330
47
100
AcDbScale
 70
     0
300
1-1/2" = 1'-0"
140
1.5
141
12.0
290
     0
  0
SCALE
  5
66
102
{ACAD_REACTORS
330
47
102
}
330
47
100
AcDbScale
 70
     0
300
3" = 1'-0"
140
3.0
141
12.0
290
     0
  0
SCALE
  5
67
102
{ACAD_REACTORS
330
47
102
}
330
47
100
AcDbScale
 70
     0
300
6" = 1'-0"
140
6.0
141
12.0
290
     0
  0
SCALE
  5
68
102
{ACAD_REACTORS
330
47
102
}
330
47
100
AcDbScale
 70
     0
300
1'-0" = 1'-0"
140
12.0
141
12.0
290
     0
  0
ENDSEC
  0
EOF
